Istituto

Chi siamo
Dove Siamo
Risorse e Strutture
Dirigenza
Organigramma
Organi Collegiali
Dipartimenti
Rassegna Stampa

Oientamento

OPEN DAY
Materiali Orientamento
Orientamento Uscita

Segreteria

Organizzazione
Iscrizioni
Modulistica
Libri di Testo
Fatturazione Elettronica

Regolamenti Interni

Istituto
Laboratori
Palestra
Viaggi di Istruzione

Istituto Tecnico Economico Statale "G.Calo'"

Via Gorizia - 21021 Francavilla Fontana (Br) - Italia

tel. +39 0831 852147 - fax +39 0831 853896

CF: 80002150748

CM: BRTD01000T

IBAN:

Codice IPA:

Codice Univoco ufficio:

EMAIL: brtd01000t@istruzione.it

Posta Certificata: brtd01000t@pec.istruzione.it

Dirigente Scol.: Prof.ssa Maria Antonietta TODISCO

Direttore S.G.A: Palmira MACI


Dall'Anno Scolastico 2019-2020 e' stata ampliata l'offerta formativa dell'ITES "Giovanni Calo'".  Per cui, tutti coloro che si volessero iscrivere alla prima classe dell'ITES "Giovanni Calo'", a partire dal prossimo anno scolastico, hanno ulteriori possibilita' di differenzazione dell'Offerta Formativa.
scarica la broshure Orientamento 2019                 scarica manifesto orientamento 2019
orari di ricevimento della segreteria: LUN-SAB 09.00-13.00 ... GIO 16.00-18.00

News

2019-02-14 09:04:34 -----------------------------------------------------------------------
In Circolari (TUTTI) e' stata effettuata la pubblicazione:
Orientamento in uscita
27 febbraio 2019


2019-02-14 09:03:56 -----------------------------------------------------------------------
In Circolari (TUTTI) e' stata effettuata la pubblicazione:
Simulazioni prove Esame di Stato


2019-02-14 09:02:56 -----------------------------------------------------------------------
In Circolari (TUTTI) e' stata effettuata la pubblicazione:
Concorso scrittura creativa


2019-02-13 09:48:11 -----------------------------------------------------------------------
In Circolari (TUTTI) e' stata effettuata la pubblicazione:
Progetto PON_BENESSERE E SOSTENIBILITA' COLLETTIVA_
Avvio mensa


2019-02-12 10:57:24 -----------------------------------------------------------------------
In Circolari (TUTTI) e' stata effettuata la pubblicazione:
Riscoperta di illustri personaggi del Territorio
Salvatore Morelli


2019-02-12 10:53:42 -----------------------------------------------------------------------
In Circolari (TUTTI) e' stata effettuata la pubblicazione:
Riscoperta di illustri personaggi del Territorio
Salvatore Morelli


2019-02-12 10:52:46 -----------------------------------------------------------------------
In Circolari (TUTTI) e' stata effettuata la pubblicazione:
Incontro con Federica Marangio
martedì 12 febbraio 2019


2019-02-12 10:51:48 -----------------------------------------------------------------------
In Circolari (TUTTI) e' stata effettuata la pubblicazione:
Educazione alla Legalità
Avvio progetto POF


2019-02-12 10:50:36 -----------------------------------------------------------------------
In Circolari (TUTTI) e' stata effettuata la pubblicazione:
Incontro con Assocaiazione AAA per la valorizzazione del MADE in PUGLIA


2019-02-12 10:49:01 -----------------------------------------------------------------------
In Circolari (TUTTI) e' stata effettuata la pubblicazione:
Servizio integrazione alunni disabili
Laboratori ARTE


2019-02-12 10:47:27 -----------------------------------------------------------------------
In Circolari (TUTTI) e' stata effettuata la pubblicazione:
Benessere e sostenibilità collettiva
Rettifica calendario progetto PON


2019-02-07 07:33:53 -----------------------------------------------------------------------
In Circolari (TUTTI) e' stata effettuata la pubblicazione:
Modellizzazione esponenziale della realtà
Avvio progetto Matematica TRIENNIO


2019-02-07 07:32:09 -----------------------------------------------------------------------
In Circolari (TUTTI) e' stata effettuata la pubblicazione:
Benessere e sostenibilità collettiva
Avvio progetto PON


2019-02-05 08:33:09 -----------------------------------------------------------------------
In Circolari (TUTTI) e' stata effettuata la pubblicazione:
INFORMAZIONE E PUBBLICIZZAZIONE


2019-02-04 11:51:31 -----------------------------------------------------------------------
In Circolari (Docenti) e' stata effettuata la pubblicazione:
Dislessia Amica
corso di formazione Livello avanzato


2019-02-04 11:48:12 -----------------------------------------------------------------------
In Circolari (TUTTI) e' stata effettuata la pubblicazione:
Orientamento in uscita


2019-02-04 11:46:55 -----------------------------------------------------------------------
In Circolari (Docenti) e' stata effettuata la pubblicazione:
Dislessia Amica
Corso di formazione livello Avanzato


2019-02-04 11:45:42 -----------------------------------------------------------------------
In Circolari (TUTTI) e' stata effettuata la pubblicazione:
Teatro Impero Brindisi
Uscita didattica


2019-01-29 10:31:43 -----------------------------------------------------------------------
In Circolari (TUTTI) e' stata effettuata la pubblicazione:
progetto TEATRO
Calendario incontri


2019-01-29 10:30:38 -----------------------------------------------------------------------
In Circolari (TUTTI) e' stata effettuata la pubblicazione:
Esami Integrativi
Sessione straordinaria


2019-01-29 10:29:59 -----------------------------------------------------------------------
In Circolari (TUTTI) e' stata effettuata la pubblicazione:
Assemblea di Istituto
30 gennaio 2019


2019-01-29 10:29:05 -----------------------------------------------------------------------
In Circolari (TUTTI) e' stata effettuata la pubblicazione:
Certificazione linguistica KET
livello A2


2019-01-24 10:21:23 -----------------------------------------------------------------------
In Circolari (TUTTI) e' stata effettuata la pubblicazione:
Incontro con l'autore
Alternza Scuola lavoro


2019-01-24 10:13:34 -----------------------------------------------------------------------
In Circolari (TUTTI) e' stata effettuata la pubblicazione:
Materie Esami di Stato


2019-01-24 10:08:15 -----------------------------------------------------------------------
In Circolari (TUTTI) e' stata effettuata la pubblicazione:
I bambini e le Donne della Shoah
Giorno della Memoria


2019-01-24 10:05:38 -----------------------------------------------------------------------
In Circolari (TUTTI) e' stata effettuata la pubblicazione:
Puglia per la Shoah
25 gennaio 2019


2019-01-24 09:53:35 -----------------------------------------------------------------------
In Circolari (TUTTI) e' stata effettuata la pubblicazione:
Assemblea di Istituto
Sede Oria


2019-01-24 09:50:38 -----------------------------------------------------------------------
In Circolari (TUTTI) e' stata effettuata la pubblicazione:
Orientamento interno classi terze


2019-01-24 09:45:16 -----------------------------------------------------------------------
In Circolari (TUTTI) e' stata effettuata la pubblicazione:
Orientamento interno classi terze


2019-01-24 09:44:23 -----------------------------------------------------------------------
In Circolari (TUTTI) e' stata effettuata la pubblicazione:
Assemblea di Istituto
Sede Oria


2019-01-24 09:43:25 -----------------------------------------------------------------------
In Circolari (TUTTI) e' stata effettuata la pubblicazione:
Bando per assistenza e integrazione sociale


2019-01-24 09:40:22 -----------------------------------------------------------------------
In Circolari (TUTTI) e' stata effettuata la pubblicazione:
Gara istituti Tecnici Indirizzo RIM


2019-01-24 09:37:13 -----------------------------------------------------------------------
In Circolari (TUTTI) e' stata effettuata la pubblicazione:
La stella di andra e tati
programmazione RAI GULP in occasione della giornata della Memoria


2019-01-24 09:29:45 -----------------------------------------------------------------------
In Circolari (TUTTI) e' stata effettuata la pubblicazione:
Materie Esami di stato


2019-01-24 09:24:58 -----------------------------------------------------------------------
In Circolari (TUTTI) e' stata effettuata la pubblicazione:
Incontro con l'autore


2019-01-24 09:24:07 -----------------------------------------------------------------------
In Circolari (TUTTI) e' stata effettuata la pubblicazione:
Puglia per la Shoah
25 gennaio 2019


2019-01-24 09:22:33 -----------------------------------------------------------------------
In Circolari (TUTTI) e' stata effettuata la pubblicazione:
Giornata della Memoria
I bambini e le Donne della Shoah


2019-01-24 09:20:19 -----------------------------------------------------------------------
In Circolari (TUTTI) e' stata effettuata la pubblicazione:
Progetto Legalità


2019-01-18 11:08:59 -----------------------------------------------------------------------
In Circolari (TUTTI) e' stata effettuata la pubblicazione:
Sciopero generale


2019-01-18 11:08:14 -----------------------------------------------------------------------
In Circolari (TUTTI) e' stata effettuata la pubblicazione:
Convocazione consigli di classe >br> Calendario Scrutini


2019-01-15 10:03:02 -----------------------------------------------------------------------
In Circolari (TUTTI) e' stata effettuata la pubblicazione:
Cittadinanza economica e finanziaria
Avvi progetto PON


2019-01-15 10:02:01 -----------------------------------------------------------------------
In Circolari (TUTTI) e' stata effettuata la pubblicazione:
Civismo rispetto delle diversità e cittadinanza
Avvio progetto PON


2019-01-14 08:37:46 -----------------------------------------------------------------------
In Circolari (TUTTI) e' stata effettuata la pubblicazione:
Avvio Corso PON Matematica
Realtà matematizzata


2019-01-14 08:36:40 -----------------------------------------------------------------------
In Circolari (TUTTI) e' stata effettuata la pubblicazione:
Certificazione Linguistica per la Lingua Spagnola


2019-01-14 08:34:52 -----------------------------------------------------------------------
In Circolari (Docenti) e' stata effettuata la pubblicazione:
Accordo partenariato PON_Orientamento
Figure Esperti


2019-01-14 08:33:43 -----------------------------------------------------------------------
In Circolari (TUTTI) e' stata effettuata la pubblicazione:
Incontro Scuola_Famiglia
percorso Alternza Scuola_lavoro


2019-01-14 08:32:19 -----------------------------------------------------------------------
In Circolari (TUTTI) e' stata effettuata la pubblicazione:
Cerificazione francese DELF


2019-01-14 08:07:57 -----------------------------------------------------------------------
In Circolari (TUTTI) e' stata effettuata la pubblicazione:
Esami integrativi
Integrazione


2019-01-14 07:52:30 -----------------------------------------------------------------------
In Circolari (TUTTI) e' stata effettuata la pubblicazione:
Esami integrativi
sessione straordinaria


2019-01-10 08:43:01 -----------------------------------------------------------------------
In Circolari (TUTTI) e' stata effettuata la pubblicazione:
Collegio docenti
14 gennaio 2019


2019-01-10 08:40:44 -----------------------------------------------------------------------
In Circolari (TUTTI) e' stata effettuata la pubblicazione:
Collegio docenti
14 gennaio 2019


2019-01-08 09:22:39 -----------------------------------------------------------------------
In Circolari (TUTTI) e' stata effettuata la pubblicazione:
Vademecum Nuove Iscrizioni classi prime
A.S. 2019_2020


2019-01-08 09:20:05 -----------------------------------------------------------------------
In Circolari (TUTTI) e' stata effettuata la pubblicazione:
Inizio progetto NUOVA ECDL
classi terze e quinte


2019-01-08 09:19:21 -----------------------------------------------------------------------
In Circolari (TUTTI) e' stata effettuata la pubblicazione:
Inizio progetto NUOVA ECDL
classi quarte


2019-01-08 09:17:53 -----------------------------------------------------------------------
In Circolari (TUTTI) e' stata effettuata la pubblicazione:
A.S.L. Corso Sicurezza sul Lavoro


2018-12-20 09:10:50 -----------------------------------------------------------------------
In Circolari (TUTTI) e' stata effettuata la pubblicazione:
Assemblea di Istituto ITES


2018-12-20 09:10:04 -----------------------------------------------------------------------
In Circolari (TUTTI) e' stata effettuata la pubblicazione:
Avvio Progetto PON 10.2.2A
Le Scienze integrate con le nuove tecnologie


2018-12-20 09:07:14 -----------------------------------------------------------------------
In Circolari (TUTTI) e' stata effettuata la pubblicazione:
INVALSI


2018-12-20 09:05:56 -----------------------------------------------------------------------
In Circolari (TUTTI) e' stata effettuata la pubblicazione:
Assemblea TURISMO Oria


2018-12-20 09:03:09 -----------------------------------------------------------------------
In Circolari (TUTTI) e' stata effettuata la pubblicazione:
Chiusura uffici di segreteria


2018-12-17 10:49:59 -----------------------------------------------------------------------
In Circolari (Docenti) e' stata effettuata la pubblicazione:
TUTTO A SCUOLA
Progetto a.s. 2018_2019


2018-12-17 10:44:00 -----------------------------------------------------------------------
In Circolari (TUTTI) e' stata effettuata la pubblicazione:
Sospensione Attività didattiche
Festività natalizie


2018-12-17 10:40:30 -----------------------------------------------------------------------
In Circolari (TUTTI) e' stata effettuata la pubblicazione:
Auguri di Buon Natale


2018-12-14 07:34:38 -----------------------------------------------------------------------
In Circolari (TUTTI) e' stata effettuata la pubblicazione:
Prenotazione laboratori


2018-12-04 08:53:53 -----------------------------------------------------------------------
In Circolari (TUTTI) e' stata effettuata la pubblicazione:
Colloqui primo quadrimestre


2018-11-28 08:09:56 -----------------------------------------------------------------------
In Circolari (TUTTI) e' stata effettuata la pubblicazione:
Verifica cassetto previdenziale
Circ. n. 59


2018-11-28 08:07:25 -----------------------------------------------------------------------
In Circolari (TUTTI) e' stata effettuata la pubblicazione:
Verifica cassetto previdenziale
circ. n. 59


2018-11-27 11:46:19 -----------------------------------------------------------------------
In Circolari (Docenti) e' stata effettuata la pubblicazione:
Corsi formazione docenti di ruolo e precari
Aperte le iscrizioni


2018-11-27 11:41:17 -----------------------------------------------------------------------
In Circolari (Docenti) e' stata effettuata la pubblicazione:
Corsi formazione docenti di ruolo e precari
Aperte le iscrizioni


2018-11-27 11:27:46 -----------------------------------------------------------------------
In Circolari (TUTTI) e' stata effettuata la pubblicazione:
Incontro con Massimiliano Cassone
progetto Educazione alla Legalità


2018-11-27 11:14:13 -----------------------------------------------------------------------
In Circolari (TUTTI) e' stata effettuata la pubblicazione:
Incontro con Associazione AAA
ASL Orientamento


2018-11-27 11:10:51 -----------------------------------------------------------------------
In Circolari (TUTTI) e' stata effettuata la pubblicazione:
Incontro con Massimiliano Cassone
Progetto Educazione alla Legalità


2018-11-27 11:07:54 -----------------------------------------------------------------------
In Circolari (TUTTI) e' stata effettuata la pubblicazione:
Convocazione genitori
Progetto ASL classe 3A


2018-11-27 11:01:30 -----------------------------------------------------------------------
In Circolari (TUTTI) e' stata effettuata la pubblicazione:
Calendario corso di formazione ASL


2018-11-27 10:54:36 -----------------------------------------------------------------------
In Circolari (TUTTI) e' stata effettuata la pubblicazione:
Incontro con Massimiliano Cassone
progetto Educazione alla Legalità


2018-11-27 10:53:29 -----------------------------------------------------------------------
In Circolari (Docenti) e' stata effettuata la pubblicazione:
Progetto FORMAGRAIN
Formazione gratuita insegnanti


2018-11-27 10:52:12 -----------------------------------------------------------------------
In Circolari (TUTTI) e' stata effettuata la pubblicazione:
Convocazione genitori
progetto ASL classe 3A


2018-11-27 10:49:53 -----------------------------------------------------------------------
In Circolari (Personale ATA) e' stata effettuata la pubblicazione:
Incontro Associazione AAA
ASL Orientamento


2018-11-27 10:48:11 -----------------------------------------------------------------------
In Circolari (TUTTI) e' stata effettuata la pubblicazione:
Giornata internazione su violenza contro le donne


2018-11-27 10:46:13 -----------------------------------------------------------------------
In Circolari (TUTTI) e' stata effettuata la pubblicazione:
Calendario corso di formazione A.S.L.


2018-11-27 10:43:01 -----------------------------------------------------------------------
In Circolari (Personale ATA) e' stata effettuata la pubblicazione:
Sciopero 30 novembre 2018


2018-11-27 10:42:11 -----------------------------------------------------------------------
In Circolari (Docenti) e' stata effettuata la pubblicazione:
Corsi formazione docenti di ruolo e precari
Aperte iscrizioni


2018-11-21 10:20:37 -----------------------------------------------------------------------
In Circolari (Docenti) e' stata effettuata la pubblicazione:
Laboratorio Informazione e Formazione SPeSAL
REGISTRO


2018-11-21 10:19:38 -----------------------------------------------------------------------
In Circolari (Docenti) e' stata effettuata la pubblicazione:
Laboratorio Informazione e Formazione SPeSAL
Attestato


2018-11-20 10:13:19 -----------------------------------------------------------------------
Pubblicato orario scolastico definitivo

2018-11-07 11:40:23 -----------------------------------------------------------------------
In Circolari (Docenti) e' stata effettuata la pubblicazione:
Sostituzione Tutor progetto PON


2018-11-07 11:39:33 -----------------------------------------------------------------------
In Circolari (TUTTI) e' stata effettuata la pubblicazione:
Incontro gruppo H
Sede Oria


2018-11-06 09:26:51 -----------------------------------------------------------------------
In Circolari (TUTTI) e' stata effettuata la pubblicazione:
Assemblea unitaria FLC CGIL-UIL SCUOLA-CISL FSUR
Bari 8 novembre 2018


2018-11-06 09:10:55 -----------------------------------------------------------------------
In Circolari (TUTTI) e' stata effettuata la pubblicazione:
Integrazione circolare Consigli di Classe


2018-11-06 09:05:19 -----------------------------------------------------------------------
In Circolari (TUTTI) e' stata effettuata la pubblicazione:
Permessi Diritto allo Studio


2018-11-06 09:04:22 -----------------------------------------------------------------------
In Circolari (TUTTI) e' stata effettuata la pubblicazione:
Consigli di Classe
Calendario incontri


2018-11-06 09:03:26 -----------------------------------------------------------------------
In Circolari (Docenti) e' stata effettuata la pubblicazione:
Olimpiadi delle Neuroscienze
Aperte le iscrizioni


2018-11-06 09:01:39 -----------------------------------------------------------------------
In Circolari (TUTTI) e' stata effettuata la pubblicazione:
progetto Ecopatente
Calendario incontri


2018-11-06 08:59:22 -----------------------------------------------------------------------
In Circolari (TUTTI) e' stata effettuata la pubblicazione:
Proclamazione rappresentanti Consiglio di Istituto


2018-11-06 08:58:15 -----------------------------------------------------------------------
In Circolari (TUTTI) e' stata effettuata la pubblicazione:
Proclamazione rappresentanti genitori


2018-11-06 08:53:12 -----------------------------------------------------------------------
In Circolari (TUTTI) e' stata effettuata la pubblicazione:
Proclamazione rappresentanti alunni


2018-10-29 10:45:31 -----------------------------------------------------------------------
In Circolari (TUTTI) e' stata effettuata la pubblicazione:
Eco patente a.s. 2018_2019
Calendario incontri


2018-10-23 08:56:35 -----------------------------------------------------------------------
In Circolari (Docenti) e' stata effettuata la pubblicazione:
Metodo Montessori
Giornate di formazione


2018-10-23 08:54:03 -----------------------------------------------------------------------
In Circolari (TUTTI) e' stata effettuata la pubblicazione:
Elezione rappresentanti di classe e di Istituto


2018-10-17 12:19:05 -----------------------------------------------------------------------
In Circolari (TUTTI) e' stata effettuata la pubblicazione:
Puliamo il Mondo
Manifestazione


2018-10-17 12:15:43 -----------------------------------------------------------------------
In Circolari (TUTTI) e' stata effettuata la pubblicazione:
Divieto di sosta e transito L.81 del 2018


2018-10-17 12:08:42 -----------------------------------------------------------------------
In Circolari (TUTTI) e' stata effettuata la pubblicazione:
presentazione liste elettorali


2018-10-17 12:07:58 -----------------------------------------------------------------------
In Circolari (TUTTI) e' stata effettuata la pubblicazione:
Elezioni rappresentanti di Classe e Istituto


2018-10-17 12:07:11 -----------------------------------------------------------------------
In Circolari (TUTTI) e' stata effettuata la pubblicazione:
Elezioni componenti genitori e rappresentanti di classe


2018-10-17 12:06:19 -----------------------------------------------------------------------
In Circolari (Docenti) e' stata effettuata la pubblicazione:
Presentazione Progetti


2018-10-17 12:05:38 -----------------------------------------------------------------------
In Circolari (TUTTI) e' stata effettuata la pubblicazione:
Viaggio a Lisbona


2018-10-17 12:04:38 -----------------------------------------------------------------------
In Circolari (TUTTI) e' stata effettuata la pubblicazione:
Divieto di sosta e transito
Legge 81 del 2008


2018-10-17 12:03:17 -----------------------------------------------------------------------
In Circolari (TUTTI) e' stata effettuata la pubblicazione:
Puliamo il Mondo
Manifestazione


2018-10-10 09:52:13 -----------------------------------------------------------------------
In Circolari (TUTTI) e' stata effettuata la pubblicazione:
Convocazione Collegio Docenti


2018-10-10 09:51:26 -----------------------------------------------------------------------
In Circolari (TUTTI) e' stata effettuata la pubblicazione:
Giornata delle Lingue


2018-10-10 09:50:16 -----------------------------------------------------------------------
In Circolari (TUTTI) e' stata effettuata la pubblicazione:
Esami Integrativi a.s. 2018_2019
Sessione straordinaria


2018-10-08 11:00:21 -----------------------------------------------------------------------
In Circolari (Docenti) e' stata effettuata la pubblicazione:
Individuazione docenti di Economia e Informatica
Progetto Biblioteche scolastiche innovative


2018-10-05 10:38:00 -----------------------------------------------------------------------
In Circolari (Docenti) e' stata effettuata la pubblicazione:
Individuazione docenti figure referenti PON-FSE 2014/20 n. 4427 –Potenziamento dell’Educazione al patrimonio culturale ,Artistico, Paesaggistico” .


2018-10-05 10:35:03 -----------------------------------------------------------------------
In Circolari (Docenti) e' stata effettuata la pubblicazione:
Disponibilita' ore eccedenti


2018-10-05 10:34:12 -----------------------------------------------------------------------
In Circolari (Docenti) e' stata effettuata la pubblicazione:
Consigli di classe Mese di ottobre 2018


2018-10-05 10:33:23 -----------------------------------------------------------------------
In Circolari (Docenti) e' stata effettuata la pubblicazione:
Corso di formazione
MORO Educatore


2018-10-04 10:26:19 -----------------------------------------------------------------------
In Circolari (TUTTI) e' stata effettuata la pubblicazione:
elenco Coordinatori A.S. 2018_2019


2018-10-04 09:39:19 -----------------------------------------------------------------------
In Circolari (Docenti) e' stata effettuata la pubblicazione:
Elenco coordinatori di classe a.s.2018_2019


2018-10-02 18:37:29 -----------------------------------------------------------------------
In Circolari (Alunni) e' stata effettuata la pubblicazione:
Ritiro password registro elettronico


2018-10-02 18:28:17 -----------------------------------------------------------------------
In Circolari (TUTTI) e' stata effettuata la pubblicazione:
Corso di Storia e Didattica della Shoah


2018-10-01 12:38:43 -----------------------------------------------------------------------
In Circolari (TUTTI) e' stata effettuata la pubblicazione:
Corso di Storia e Didattica della Shoah


2018-10-01 12:31:37 -----------------------------------------------------------------------
In Circolari (TUTTI) e' stata effettuata la pubblicazione:
Corso di Storia e Didattica della Shoah
VII Edizione


2018-10-01 12:30:14 -----------------------------------------------------------------------
In Circolari (TUTTI) e' stata effettuata la pubblicazione:
Manifestazione inizio anno scolastico
Rettifica


2018-09-28 08:28:28 -----------------------------------------------------------------------
In Circolari (TUTTI) e' stata effettuata la pubblicazione:
Eventi Settimana della Dislessia


2018-09-28 08:26:47 -----------------------------------------------------------------------
In Circolari (TUTTI) e' stata effettuata la pubblicazione:
Assemblea sindacale 4 ottobre 2018


2018-09-19 11:41:46 -----------------------------------------------------------------------
In Circolari (TUTTI) e' stata effettuata la pubblicazione:
Prosieguo attivita' progettuali
Diritti a Scuola


2018-09-12 12:45:22 -----------------------------------------------------------------------
In Circolari (TUTTI) e' stata effettuata la pubblicazione:
Commissione Esami Integrativi
Calendario prove


2018-09-12 10:52:49 -----------------------------------------------------------------------
In Circolari (TUTTI) e' stata effettuata la pubblicazione:
Componenti Esami Integrativi
Calendario prove scritte e orali


2018-09-04 11:43:12 -----------------------------------------------------------------------
In Circolari (TUTTI) e' stata effettuata la pubblicazione:
Collegio Docenti
12 settembre 2018


2018-09-04 11:42:14 -----------------------------------------------------------------------
In Circolari (TUTTI) e' stata effettuata la pubblicazione:
Disinfestazione
8 settembre 2018


2018-09-04 11:41:11 -----------------------------------------------------------------------
In Circolari (TUTTI) e' stata effettuata la pubblicazione:
Incontri per Discipline e Dipartimenti
Calendario


2018-07-17 11:34:59 -----------------------------------------------------------------------
In Albo Pretorio Gare e Bandi e' stata effettuata la pubblicazione:
Concorso pubblico funzionario amministrativo giuridico contabile
PROROGA Rilevazione aule informatiche


2018-07-17 11:29:39 -----------------------------------------------------------------------
In Albo Pretorio Gare e Bandi e' stata effettuata la pubblicazione:
Concorso pubblico funzionario amministrativo giudico contabile
PROROGA Aule informatizzate


2018-07-13 12:56:39 -----------------------------------------------------------------------
In Albo Pretorio Gare e Bandi e' stata effettuata la pubblicazione:
Concorso pubblico Funzionari Amministrativo contabili


2018-07-11 11:41:58 -----------------------------------------------------------------------
In Albo Pretorio Gare e Bandi e' stata effettuata la pubblicazione:
Concorso pubblico per esami
profilo funzionario contabile


2018-07-11 11:40:06 -----------------------------------------------------------------------
In Albo Pretorio Gare e Bandi e' stata effettuata la pubblicazione:
concorso per esami
funzionario giuridico contabile


2018-07-11 11:21:44 -----------------------------------------------------------------------
In Circolari (TUTTI) e' stata effettuata la pubblicazione:
Decreto dirigenziale Calendario Scolastico
A.S. 2018_19


2018-06-20 09:43:29 -----------------------------------------------------------------------
In Circolari (TUTTI) e' stata effettuata la pubblicazione:
Procedura comunicazione debiti scolastici


2018-06-15 08:54:09 -----------------------------------------------------------------------
In Circolari (TUTTI) e' stata effettuata la pubblicazione:
Concorso RAI Cultura studenti


2018-06-11 16:26:46 -----------------------------------------------------------------------
In Circolari (Docenti) e' stata effettuata la pubblicazione:
Rettifica selezione esperto Cyber bullismo


2018-06-11 16:25:45 -----------------------------------------------------------------------
In Circolari (Docenti) e' stata effettuata la pubblicazione:
Graduatoria esperto Cyber bullismo


2018-06-11 15:57:48 -----------------------------------------------------------------------
In Circolari (Docenti) � stata effettuata la pubblicazione:
Decreto rettifica e Graduatoria definitiva Esperto Cyber. bullismo .RETTIFICA


2018-06-11 10:01:22 -----------------------------------------------------------------------
In Circolari (Docenti) e' stata effettuata la pubblicazione:
Selezione Figura professionale di Cyber Bullismo
Progetto Tipo C. RETTIFICA


2018-06-11 09:34:27 -----------------------------------------------------------------------
In Circolari (TUTTI) e' stata effettuata la pubblicazione:
RAI Cultura media partnership.
Concorso studenti


2018-06-11 09:10:20 -----------------------------------------------------------------------
In Circolari (Docenti) e' stata effettuata la pubblicazione:
Progetto Diritti a scuola. Corso di Formazione.
Avviso pubblico n. 7 . Tipo D


2018-06-11 08:54:22 -----------------------------------------------------------------------
In Circolari (TUTTI) e' stata effettuata la pubblicazione:
Giornata della Legalita'


2018-05-31 11:44:35 -----------------------------------------------------------------------
In Circolari (Alunni) e' stata effettuata la pubblicazione:
Bando selezione 100 studenti del triennio a MALTA


2018-05-31 11:40:52 -----------------------------------------------------------------------
In Circolari (TUTTI) e' stata effettuata la pubblicazione:
Incontro formativo
Sede di Oria


2018-05-31 11:38:14 -----------------------------------------------------------------------
In Circolari (Docenti) e' stata effettuata la pubblicazione:
Selezione personale interno A.S.L.


2018-05-31 11:36:19 -----------------------------------------------------------------------
In Circolari (Docenti) e' stata effettuata la pubblicazione:
Rettifica adempimenti preliminari circ. 245


2018-05-31 11:33:37 -----------------------------------------------------------------------
In Circolari (TUTTI) e' stata effettuata la pubblicazione:
Progetto Educazione alla Salute
Questionario ESPAD


2018-05-31 11:30:59 -----------------------------------------------------------------------
In Circolari (TUTTI) e' stata effettuata la pubblicazione:
Operazioni Scrutinio di fine anno


2018-05-31 11:29:57 -----------------------------------------------------------------------
In Circolari (Docenti) e' stata effettuata la pubblicazione:
Apertura iscrizioni Corsi di formazione Infanzia


2018-05-21 11:43:34 -----------------------------------------------------------------------
In Circolari (Docenti) � stata effettuata la pubblicazione:
Integrazione circolare attivazione percorsi formativi


Albo Pretorio

Gare e Bandi
PON / POR
Delibere C.I.
Graduatorie
Sicurezza
R.S.U.
Circolari
Ricevimenti
Privacy
Amministrazione Trasparente
Albo Pretorio on-line

Scuola in Chiaro

 

 
impostazioni ottimali 1280 x 768 - carattere medio      
© Fulvio Rubino - 2015